Takip et @akorbul
intro 1 (4 Kez)
G|--77-955555-3302222------------|
D|--00-0-00000-0000000------------|


Söz Kısmı 1
    D5                         C5             Bb5
G|--(7)(7)(7)(7)(7)(7)(7)(7)---(5)(5)(5)(5)---(3)(3)(3)(3)---|
D|--(7)(7)(7)(7)(7)(7)(7)(7)---(5)(5)(5)(5)---(3)(3)(3)(3)---|
A|--(5)(5)(5)(5)(5)(5)(5)(5)---(3)(3)(3)(3)---(1)(1)(1)(1)---|
E|-----------------------------------------------------------|

    Beni yak kendini yak       herşe##########yi yak
    Bir kıvılcım yeter         ben hazırım   bak

    A5                         A#5
G|-----------------------------------------------------------|
D|--(7)(7)(7)(7)(7)(7)(7)(7)---(8)(8)(8)(8)(8)(8)(8)(8)------|
A|--(7)(7)(7)(7)(7)(7)(7)(7)---(8)(8)(8)(8)(8)(8)(8)(8)------|
E|--(5)(5)(5)(5)(5)(5)(5)(5)---(6)(6)(6)(6)(6)(6)(6)(6)------|

    İster öp okşa              istersen öldür

    G5                         A5
G|-----------------------------------------------------------|
D|--(5)(5)(5)(5)(5)(5)(5)(5)---(7)(7)(7)(7)(7)(7)(7)(7)------|
A|--(5)(5)(5)(5)(5)(5)(5)(5)---(7)(7)(7)(7)(7)(7)(7)(7)------|
E|--(3)(3)(3)(3)(3)(3)(3)(3)---(5)(5)(5)(5)(5)(5)(5)(5)------|

    Aşk için ölmeli aşk        o zaman aşk

    G5                         A#5
G|-----------------------------------------------------------|
D|--(5)(5)(5)(5)(5)(5)(5)(5)---(8)(8)(8)(8)(8)(8)(8)(8)------|
A|--(5)(5)(5)(5)(5)(5)(5)(5)---(8)(8)(8)(8)(8)(8)(8)(8)------|
E|--(3)(3)(3)(3)(3)(3)(3)(3)---(6)(6)(6)(6)(6)(6)(6)(6)------|

    Aşk için ölmeli aşk        o zaman aşk


Intro 2 (8 Kez)
G|--77955555-33022220------------|
D|--00-0-00000-00000000-3235-203---|
A|----------------------0000-000---|

G|--77955555-33022220--------2---|
D|--00-0-00000-00000000-3235-200---|
A|----------------------0000-00----|

Söz kısmı 2 Aynı Akorlar


NAKARAT
    D5       G5     D5     A5    G5       A5
G|--7--7------------7--7---------------------------------|
D|--7--7-----5--5---7--7---7-7---55555555-----77777777---|
A|--5--5-----5--5---5--5---7-7---55555555-----77777777---|
E|-----------3--3----------5-5---33333333-----55555555---|
    All#####ahım    All###ahım ateşlere yürü##yorum

    D5       G5     D5     A5    G5       A5
G|--7--7------------7--7----------------------------------|
D|--7--7-----5--5---7--7---7-7---55555555------88888888---|
A|--5--5-----5--5---5--5---7-7---55555555------88888888---|
E|-----------3--3----------5-5---33333333------66666666---|
    All#####ahım    Acı    ile   aşk ile büyü##yorum

Intro 3(2 ile aynı)
Söz Kısmı 3 (sadece bas gitar ve davulla)
Nakarat
Söz kısmı 1
Söz kısmı 2
21 Temmuz 2011 tarihinde İbrahim3 ekledi.
1/5 (1 oy)
Yorumlar
Ekleyen : veya giriş yap